ISO-10303-21;
HEADER;
FILE_DESCRIPTION (( 'STEP AP203' ),
    '1' );
FILE_NAME ('Q-QZWP-R4-10-980-M.STEP',
    '2020-12-23T01:22:50',
    ( '' ),
    ( '' ),
    'SwSTEP 2.0',
    'SolidWorks 2020',
    '' );
FILE_SCHEMA (( 'CONFIG_CONTROL_DESIGN' ));
ENDSEC;

DATA;
#1 = DIRECTION ( 'NONE',  ( -1.000000000000000000, -0.000000000000000000, -0.000000000000000000 ) ) ;
#2 = ADVANCED_FACE ( 'NONE', ( #59 ), #298, .F. ) ;
#3 = ORIENTED_EDGE ( 'NONE', *, *, #213, .F. ) ;
#4 = APPLICATION_PROTOCOL_DEFINITION ( 'international standard', 'config_control_design', 1994, #188 ) ;
#5 = DIRECTION ( 'NONE',  ( -1.000000000000000000, -0.000000000000000000, -0.000000000000000000 ) ) ;
#6 = CARTESIAN_POINT ( 'NONE',  ( 3.000000000000000000, 0.000000000000000000, 12.69999999999999929 ) ) ;
#7 = PRODUCT_DEFINITION ( 'UNKNOWN', '', #281, #91 ) ;
#8 = ORIENTED_EDGE ( 'NONE', *, *, #215, .T. ) ;
#9 = VECTOR ( 'NONE', #271, 1000.000000000000000 ) ;
#10 = ORIENTED_EDGE ( 'NONE', *, *, #197, .T. ) ;
#11 = ADVANCED_FACE ( 'NONE', ( #33, #78 ), #291, .F. ) ;
#12 = CYLINDRICAL_SURFACE ( 'NONE', #308, 12.69999999999999929 ) ;
#13 = CARTESIAN_POINT ( 'NONE',  ( 1.250000000000000444, 6.123233995736766282E-16, -5.000000000000000000 ) ) ;
#14 = CARTESIAN_POINT ( 'NONE',  ( -1.614212418857619014, 0.000000000000000000, 12.69999999999999929 ) ) ;
#15 = CIRCLE ( 'NONE', #170, 5.000000000000001776 ) ;
#16 = DIRECTION ( 'NONE',  ( 1.000000000000000000, 0.000000000000000000, 0.000000000000000000 ) ) ;
#17 = DIRECTION ( 'NONE',  ( -1.000000000000000000, -0.000000000000000000, -0.000000000000000000 ) ) ;
#18 = EDGE_LOOP ( 'NONE', ( #168, #295 ) ) ;
#19 = CARTESIAN_POINT ( 'NONE',  ( -1.250000000000000222, 6.123233995736767268E-16, -5.000000000000000888 ) ) ;
#20 = CIRCLE ( 'NONE', #216, 12.69999999999999929 ) ;
#21 = CARTESIAN_POINT ( 'NONE',  ( 3.000000000000000000, 0.000000000000000000, 0.000000000000000000 ) ) ;
#22 = AXIS2_PLACEMENT_3D ( 'NONE', #313, #316, #199 ) ;
#23 = AXIS2_PLACEMENT_3D ( 'NONE', #177, #184, #126 ) ;
#24 = EDGE_CURVE ( 'NONE', #93, #229, #79, .T. ) ;
#25 = DIRECTION ( 'NONE',  ( 1.000000000000000000, 0.000000000000000000, 0.000000000000000000 ) ) ;
#26 = VERTEX_POINT ( 'NONE', #13 ) ;
#27 = PERSON_AND_ORGANIZATION ( #102, #141 ) ;
#28 = CARTESIAN_POINT ( 'NONE',  ( -1.250000000000000222, 0.000000000000000000, 5.000000000000000888 ) ) ;
#29 = DIRECTION ( 'NONE',  ( 1.000000000000000000, 0.000000000000000000, 0.000000000000000000 ) ) ;
#30 = CARTESIAN_POINT ( 'NONE',  ( 3.000000000000000000, 0.000000000000000000, 5.000000000000001776 ) ) ;
#31 = EDGE_LOOP ( 'NONE', ( #245, #171, #278, #121 ) ) ;
#32 = CIRCLE ( 'NONE', #128, 5.000000000000000000 ) ;
#33 = FACE_BOUND ( 'NONE', #64, .T. ) ;
#34 = LINE ( 'NONE', #209, #9 ) ;
#35 = VERTEX_POINT ( 'NONE', #76 ) ;
#36 = DIRECTION ( 'NONE',  ( -1.000000000000000000, -0.000000000000000000, -0.000000000000000000 ) ) ;
#37 = APPROVAL_PERSON_ORGANIZATION ( #138, #165, #132 ) ;
#38 = CARTESIAN_POINT ( 'NONE',  ( 3.000000000000000000, 0.000000000000000000, 0.000000000000000000 ) ) ;
#39 = APPROVAL ( #104, 'UNSPECIFIED' ) ;
#40 = ORIENTED_EDGE ( 'NONE', *, *, #150, .F. ) ;
#41 = PLANE ( 'NONE',  #112 ) ;
#42 = DIRECTION ( 'NONE',  ( 0.000000000000000000, 0.000000000000000000, -1.000000000000000000 ) ) ;
#43 = DIRECTION ( 'NONE',  ( -1.000000000000000000, -0.000000000000000000, -0.000000000000000000 ) ) ;
#44 = CIRCLE ( 'NONE', #304, 12.69999999999999929 ) ;
#45 = CALENDAR_DATE ( 2020, 23, 12 ) ;
#46 = DIRECTION ( 'NONE',  ( -1.000000000000000000, -0.000000000000000000, -0.000000000000000000 ) ) ;
#47 = CC_DESIGN_PERSON_AND_ORGANIZATION_ASSIGNMENT ( #186, #236, ( #281 ) ) ;
#48 =( LENGTH_UNIT ( ) NAMED_UNIT ( * ) SI_UNIT ( .MILLI., .METRE. ) );
#49 = CARTESIAN_POINT ( 'NONE',  ( -3.000000000000000000, 0.000000000000000000, 12.69999999999999929 ) ) ;
#50 = VECTOR ( 'NONE', #43, 1000.000000000000000 ) ;
#51 = CARTESIAN_POINT ( 'NONE',  ( 1.250000000000000222, 5.000000000000000000, 0.000000000000000000 ) ) ;
#52 = ORIENTED_EDGE ( 'NONE', *, *, #70, .T. ) ;
#53 = DIRECTION ( 'NONE',  ( 0.000000000000000000, 0.000000000000000000, 1.000000000000000000 ) ) ;
#54 = EDGE_CURVE ( 'NONE', #26, #116, #330, .T. ) ;
#55 = VERTEX_POINT ( 'NONE', #6 ) ;
#56 = DIRECTION ( 'NONE',  ( -1.000000000000000000, -0.000000000000000000, -0.000000000000000000 ) ) ;
#57 = ORIENTED_EDGE ( 'NONE', *, *, #136, .T. ) ;
#58 = CARTESIAN_POINT ( 'NONE',  ( -1.614212418857619014, 0.000000000000000000, 0.000000000000000000 ) ) ;
#59 = FACE_OUTER_BOUND ( 'NONE', #180, .T. ) ;
#60 = DIRECTION ( 'NONE',  ( -1.000000000000000000, -0.000000000000000000, -0.000000000000000000 ) ) ;
#61 = ORIENTED_EDGE ( 'NONE', *, *, #73, .F. ) ;
#62 = DIRECTION ( 'NONE',  ( 0.000000000000000000, 0.000000000000000000, 1.000000000000000000 ) ) ;
#63 = APPROVAL_PERSON_ORGANIZATION ( #164, #231, #108 ) ;
#64 = EDGE_LOOP ( 'NONE', ( #320, #227 ) ) ;
#65 = FACE_OUTER_BOUND ( 'NONE', #201, .T. ) ;
#66 = CARTESIAN_POINT ( 'NONE',  ( 3.000000000000000000, 6.123233995736768255E-16, -5.000000000000001776 ) ) ;
#67 =( NAMED_UNIT ( * ) PLANE_ANGLE_UNIT ( ) SI_UNIT ( $, .RADIAN. ) );
#68 = CIRCLE ( 'NONE', #296, 5.000000000000001776 ) ;
#69 = APPLICATION_PROTOCOL_DEFINITION ( 'international standard', 'config_control_design', 1994, #94 ) ;
#70 = EDGE_CURVE ( 'NONE', #229, #93, #202, .T. ) ;
#71 = APPROVAL_DATE_TIME ( #106, #165 ) ;
#72 = PRODUCT ( 'Q-QZWP-R4-10-980-M', 'Q-QZWP-R4-10-980-M', '', ( #258 ) ) ;
#73 = EDGE_CURVE ( 'NONE', #323, #55, #129, .T. ) ;
#74 = ADVANCED_FACE ( 'NONE', ( #318 ), #224, .F. ) ;
#75 = PERSON_AND_ORGANIZATION_ROLE ( 'design_owner' ) ;
#76 = CARTESIAN_POINT ( 'NONE',  ( -3.000000000000000000, 1.555301434917138433E-15, -12.69999999999999929 ) ) ;
#77 = DIRECTION ( 'NONE',  ( -1.000000000000000000, -0.000000000000000000, -0.000000000000000000 ) ) ;
#78 = FACE_OUTER_BOUND ( 'NONE', #18, .T. ) ;
#79 = CIRCLE ( 'NONE', #208, 5.000000000000000888 ) ;
#80 = PERSON_AND_ORGANIZATION ( #102, #141 ) ;
#81 = CARTESIAN_POINT ( 'NONE',  ( -1.614212418857619014, 6.123233995736767268E-16, -5.000000000000000888 ) ) ;
#82 = ORIENTED_EDGE ( 'NONE', *, *, #24, .F. ) ;
#83 = CC_DESIGN_DATE_AND_TIME_ASSIGNMENT ( #315, #111, ( #155 ) ) ;
#84 = ORIENTED_EDGE ( 'NONE', *, *, #282, .F. ) ;
#85 = CYLINDRICAL_SURFACE ( 'NONE', #22, 12.69999999999999929 ) ;
#86 = AXIS2_PLACEMENT_3D ( 'NONE', #263, #113, #248 ) ;
#87 = CC_DESIGN_APPROVAL ( #231, ( #7 ) ) ;
#88 = FACE_OUTER_BOUND ( 'NONE', #294, .T. ) ;
#89 = ADVANCED_FACE ( 'NONE', ( #247 ), #12, .T. ) ;
#90 = EDGE_LOOP ( 'NONE', ( #326, #61 ) ) ;
#91 = DESIGN_CONTEXT ( 'detailed design', #188, 'design' ) ;
#92 = CARTESIAN_POINT ( 'NONE',  ( -1.250000000000000222, 5.000000000000000000, 0.000000000000000000 ) ) ;
#93 = VERTEX_POINT ( 'NONE', #28 ) ;
#94 = APPLICATION_CONTEXT ( 'configuration controlled 3d designs of mechanical parts and assemblies' ) ;
#95 = CYLINDRICAL_SURFACE ( 'NONE', #158, 5.000000000000000888 ) ;
#96 = ORIENTED_EDGE ( 'NONE', *, *, #131, .F. ) ;
#97 = DIRECTION ( 'NONE',  ( -1.000000000000000000, -0.000000000000000000, -0.000000000000000000 ) ) ;
#98 = CYLINDRICAL_SURFACE ( 'NONE', #148, 5.000000000000000888 ) ;
#99 = APPROVAL_STATUS ( 'not_yet_approved' ) ;
#100 = DATE_AND_TIME ( #307, #260 ) ;
#101 = VECTOR ( 'NONE', #17, 1000.000000000000000 ) ;
#102 = PERSON ( 'UNSPECIFIED', 'UNSPECIFIED', 'UNSPECIFIED', ('UNSPECIFIED'), ('UNSPECIFIED'), ('UNSPECIFIED') ) ;
#103 = CC_DESIGN_PERSON_AND_ORGANIZATION_ASSIGNMENT ( #261, #210, ( #281 ) ) ;
#104 = APPROVAL_STATUS ( 'not_yet_approved' ) ;
#105 =( GEOMETRIC_REPRESENTATION_CONTEXT ( 3 ) GLOBAL_UNCERTAINTY_ASSIGNED_CONTEXT ( ( #274 ) ) GLOBAL_UNIT_ASSIGNED_CONTEXT ( ( #48, #67, #185 ) ) REPRESENTATION_CONTEXT ( 'NONE', 'WORKASPACE' ) );
#106 = DATE_AND_TIME ( #161, #268 ) ;
#107 = VERTEX_POINT ( 'NONE', #49 ) ;
#108 = APPROVAL_ROLE ( '' ) ;
#109 = DIRECTION ( 'NONE',  ( 0.000000000000000000, 0.000000000000000000, 1.000000000000000000 ) ) ;
#110 = ORIENTED_EDGE ( 'NONE', *, *, #305, .F. ) ;
#111 = DATE_TIME_ROLE ( 'classification_date' ) ;
#112 = AXIS2_PLACEMENT_3D ( 'NONE', #92, #16, #117 ) ;
#113 = DIRECTION ( 'NONE',  ( 1.000000000000000000, 0.000000000000000000, 0.000000000000000000 ) ) ;
#114 = ORIENTED_EDGE ( 'NONE', *, *, #70, .F. ) ;
#115 = DIRECTION ( 'NONE',  ( 0.000000000000000000, 0.000000000000000000, 1.000000000000000000 ) ) ;
#116 = VERTEX_POINT ( 'NONE', #226 ) ;
#117 = DIRECTION ( 'NONE',  ( 0.000000000000000000, 0.000000000000000000, -1.000000000000000000 ) ) ;
#118 = ADVANCED_FACE ( 'NONE', ( #221 ), #85, .T. ) ;
#119 = CARTESIAN_POINT ( 'NONE',  ( -1.614212418857619014, 1.555301434917138433E-15, -12.69999999999999929 ) ) ;
#120 = DIRECTION ( 'NONE',  ( -1.000000000000000000, -0.000000000000000000, -0.000000000000000000 ) ) ;
#121 = ORIENTED_EDGE ( 'NONE', *, *, #215, .F. ) ;
#122 = ORIENTED_EDGE ( 'NONE', *, *, #264, .T. ) ;
#123 = FACE_OUTER_BOUND ( 'NONE', #144, .T. ) ;
#124 = CARTESIAN_POINT ( 'NONE',  ( 3.000000000000000000, 0.000000000000000000, 0.000000000000000000 ) ) ;
#125 = CC_DESIGN_SECURITY_CLASSIFICATION ( #155, ( #281 ) ) ;
#126 = DIRECTION ( 'NONE',  ( -0.000000000000000000, 0.000000000000000000, 1.000000000000000000 ) ) ;
#127 = CARTESIAN_POINT ( 'NONE',  ( -3.000000000000000000, 0.000000000000000000, 0.000000000000000000 ) ) ;
#128 = AXIS2_PLACEMENT_3D ( 'NONE', #322, #297, #149 ) ;
#129 = CIRCLE ( 'NONE', #269, 12.69999999999999929 ) ;
#130 = DIRECTION ( 'NONE',  ( 0.000000000000000000, 0.000000000000000000, 1.000000000000000000 ) ) ;
#131 = EDGE_CURVE ( 'NONE', #266, #26, #160, .T. ) ;
#132 = APPROVAL_ROLE ( '' ) ;
#133 = AXIS2_PLACEMENT_3D ( 'NONE', #154, #97, #62 ) ;
#134 = APPROVAL_PERSON_ORGANIZATION ( #80, #39, #189 ) ;
#135 = CARTESIAN_POINT ( 'NONE',  ( 0.000000000000000000, 0.000000000000000000, 0.000000000000000000 ) ) ;
#136 = EDGE_CURVE ( 'NONE', #254, #242, #321, .T. ) ;
#137 = CARTESIAN_POINT ( 'NONE',  ( 1.250000000000000444, 0.000000000000000000, 0.000000000000000000 ) ) ;
#138 = PERSON_AND_ORGANIZATION ( #102, #141 ) ;
#139 = VERTEX_POINT ( 'NONE', #30 ) ;
#140 = PRODUCT_RELATED_PRODUCT_CATEGORY ( 'detail', '', ( #72 ) ) ;
#141 = ORGANIZATION ( 'UNSPECIFIED', 'UNSPECIFIED', '' ) ;
#142 = DIRECTION ( 'NONE',  ( -0.000000000000000000, 0.000000000000000000, 1.000000000000000000 ) ) ;
#143 = AXIS2_PLACEMENT_3D ( 'NONE', #191, #289, #42 ) ;
#144 = EDGE_LOOP ( 'NONE', ( #96, #40, #183, #10 ) ) ;
#145 = DIRECTION ( 'NONE',  ( 0.000000000000000000, 0.000000000000000000, 1.000000000000000000 ) ) ;
#146 = DIRECTION ( 'NONE',  ( 0.000000000000000000, 0.000000000000000000, 1.000000000000000000 ) ) ;
#147 = CARTESIAN_POINT ( 'NONE',  ( -3.000000000000000000, 0.000000000000000000, 5.000000000000000000 ) ) ;
#148 = AXIS2_PLACEMENT_3D ( 'NONE', #58, #173, #145 ) ;
#149 = DIRECTION ( 'NONE',  ( 0.000000000000000000, 0.000000000000000000, 1.000000000000000000 ) ) ;
#150 = EDGE_CURVE ( 'NONE', #139, #266, #15, .T. ) ;
#151 = ORIENTED_EDGE ( 'NONE', *, *, #333, .F. ) ;
#152 = CARTESIAN_POINT ( 'NONE',  ( -1.614212418857619014, 0.000000000000000000, 5.000000000000000888 ) ) ;
#153 = CC_DESIGN_PERSON_AND_ORGANIZATION_ASSIGNMENT ( #217, #195, ( #155 ) ) ;
#154 = CARTESIAN_POINT ( 'NONE',  ( -1.614212418857619014, 0.000000000000000000, 0.000000000000000000 ) ) ;
#155 = SECURITY_CLASSIFICATION ( '', '', #211 ) ;
#156 = COORDINATED_UNIVERSAL_TIME_OFFSET ( 8, 0, .AHEAD. ) ;
#157 = DIRECTION ( 'NONE',  ( 0.000000000000000000, 0.000000000000000000, 1.000000000000000000 ) ) ;
#158 = AXIS2_PLACEMENT_3D ( 'NONE', #206, #235, #331 ) ;
#159 = DATE_AND_TIME ( #240, #162 ) ;
#160 = LINE ( 'NONE', #81, #172 ) ;
#161 = CALENDAR_DATE ( 2020, 23, 12 ) ;
#162 = LOCAL_TIME ( 9, 22, 50.00000000000000000, #284 ) ;
#163 = ORIENTED_EDGE ( 'NONE', *, *, #305, .T. ) ;
#164 = PERSON_AND_ORGANIZATION ( #102, #141 ) ;
#165 = APPROVAL ( #243, 'UNSPECIFIED' ) ;
#166 = CARTESIAN_POINT ( 'NONE',  ( -1.614212418857619014, 0.000000000000000000, 0.000000000000000000 ) ) ;
#167 = DIRECTION ( 'NONE',  ( -1.000000000000000000, 0.000000000000000000, -0.000000000000000000 ) ) ;
#168 = ORIENTED_EDGE ( 'NONE', *, *, #219, .T. ) ;
#169 = CLOSED_SHELL ( 'NONE', ( #118, #290, #74, #2, #241, #299, #11, #89, #273, #182 ) ) ;
#170 = AXIS2_PLACEMENT_3D ( 'NONE', #38, #203, #276 ) ;
#171 = ORIENTED_EDGE ( 'NONE', *, *, #256, .T. ) ;
#172 = VECTOR ( 'NONE', #77, 1000.000000000000000 ) ;
#173 = DIRECTION ( 'NONE',  ( -1.000000000000000000, -0.000000000000000000, -0.000000000000000000 ) ) ;
#174 = ORIENTED_EDGE ( 'NONE', *, *, #54, .F. ) ;
#175 = CARTESIAN_POINT ( 'NONE',  ( 3.000000000000000000, 0.000000000000000000, 0.000000000000000000 ) ) ;
#176 = ORIENTED_EDGE ( 'NONE', *, *, #285, .T. ) ;
#177 = CARTESIAN_POINT ( 'NONE',  ( 3.000000000000000000, 12.69999999999999929, 0.000000000000000000 ) ) ;
#178 = CIRCLE ( 'NONE', #212, 12.69999999999999929 ) ;
#179 = AXIS2_PLACEMENT_3D ( 'NONE', #262, #5, #109 ) ;
#180 = EDGE_LOOP ( 'NONE', ( #218, #174 ) ) ;
#181 = DIRECTION ( 'NONE',  ( -1.000000000000000000, -0.000000000000000000, -0.000000000000000000 ) ) ;
#182 = ADVANCED_FACE ( 'NONE', ( #88 ), #41, .F. ) ;
#183 = ORIENTED_EDGE ( 'NONE', *, *, #282, .T. ) ;
#184 = DIRECTION ( 'NONE',  ( -1.000000000000000000, 0.000000000000000000, -0.000000000000000000 ) ) ;
#185 =( NAMED_UNIT ( * ) SI_UNIT ( $, .STERADIAN. ) SOLID_ANGLE_UNIT ( ) );
#186 = PERSON_AND_ORGANIZATION ( #102, #141 ) ;
#187 = AXIS2_PLACEMENT_3D ( 'NONE', #300, #233, #303 ) ;
#188 = APPLICATION_CONTEXT ( 'configuration controlled 3d designs of mechanical parts and assemblies' ) ;
#189 = APPROVAL_ROLE ( '' ) ;
#190 = APPROVAL_DATE_TIME ( #306, #231 ) ;
#191 = CARTESIAN_POINT ( 'NONE',  ( -1.250000000000000222, 0.000000000000000000, 0.000000000000000000 ) ) ;
#192 = LOCAL_TIME ( 9, 22, 50.00000000000000000, #259 ) ;
#193 = CARTESIAN_POINT ( 'NONE',  ( -3.000000000000000000, 0.000000000000000000, 0.000000000000000000 ) ) ;
#194 = CARTESIAN_POINT ( 'NONE',  ( -1.250000000000000222, 0.000000000000000000, 0.000000000000000000 ) ) ;
#195 = PERSON_AND_ORGANIZATION_ROLE ( 'classification_officer' ) ;
#196 = DIRECTION ( 'NONE',  ( -1.000000000000000000, -0.000000000000000000, -0.000000000000000000 ) ) ;
#197 = EDGE_CURVE ( 'NONE', #116, #26, #32, .T. ) ;
#198 = ORIENTED_EDGE ( 'NONE', *, *, #150, .T. ) ;
#199 = DIRECTION ( 'NONE',  ( 0.000000000000000000, 0.000000000000000000, 1.000000000000000000 ) ) ;
#200 = CIRCLE ( 'NONE', #187, 5.000000000000000000 ) ;
#201 = EDGE_LOOP ( 'NONE', ( #270, #52, #8, #57 ) ) ;
#202 = CIRCLE ( 'NONE', #143, 5.000000000000000888 ) ;
#203 = DIRECTION ( 'NONE',  ( -1.000000000000000000, -0.000000000000000000, -0.000000000000000000 ) ) ;
#204 = FACE_BOUND ( 'NONE', #265, .T. ) ;
#205 = ORIENTED_EDGE ( 'NONE', *, *, #54, .T. ) ;
#206 = CARTESIAN_POINT ( 'NONE',  ( -1.614212418857619014, 0.000000000000000000, 0.000000000000000000 ) ) ;
#207 = LOCAL_TIME ( 9, 22, 50.00000000000000000, #220 ) ;
#208 = AXIS2_PLACEMENT_3D ( 'NONE', #194, #29, #311 ) ;
#209 = CARTESIAN_POINT ( 'NONE',  ( -1.614212418857619014, 6.123233995736767268E-16, -5.000000000000000888 ) ) ;
#210 = PERSON_AND_ORGANIZATION_ROLE ( 'design_supplier' ) ;
#211 = SECURITY_CLASSIFICATION_LEVEL ( 'unclassified' ) ;
#212 = AXIS2_PLACEMENT_3D ( 'NONE', #127, #332, #288 ) ;
#213 = EDGE_CURVE ( 'NONE', #266, #139, #68, .T. ) ;
#214 = SHAPE_DEFINITION_REPRESENTATION ( #237, #310 ) ;
#215 = EDGE_CURVE ( 'NONE', #93, #254, #230, .T. ) ;
#216 = AXIS2_PLACEMENT_3D ( 'NONE', #21, #120, #257 ) ;
#217 = PERSON_AND_ORGANIZATION ( #102, #141 ) ;
#218 = ORIENTED_EDGE ( 'NONE', *, *, #197, .F. ) ;
#219 = EDGE_CURVE ( 'NONE', #107, #35, #44, .T. ) ;
#220 = COORDINATED_UNIVERSAL_TIME_OFFSET ( 8, 0, .AHEAD. ) ;
#221 = FACE_OUTER_BOUND ( 'NONE', #302, .T. ) ;
#222 = ORIENTED_EDGE ( 'NONE', *, *, #219, .F. ) ;
#223 = EDGE_CURVE ( 'NONE', #242, #254, #200, .T. ) ;
#224 = CYLINDRICAL_SURFACE ( 'NONE', #179, 5.000000000000000888 ) ;
#225 = EDGE_LOOP ( 'NONE', ( #3, #314, #205, #84 ) ) ;
#226 = CARTESIAN_POINT ( 'NONE',  ( 1.250000000000000444, 0.000000000000000000, 5.000000000000000000 ) ) ;
#227 = ORIENTED_EDGE ( 'NONE', *, *, #223, .F. ) ;
#228 = DIRECTION ( 'NONE',  ( 0.000000000000000000, 0.000000000000000000, 1.000000000000000000 ) ) ;
#229 = VERTEX_POINT ( 'NONE', #19 ) ;
#230 = LINE ( 'NONE', #152, #101 ) ;
#231 = APPROVAL ( #99, 'UNSPECIFIED' ) ;
#232 = CYLINDRICAL_SURFACE ( 'NONE', #133, 5.000000000000000888 ) ;
#233 = DIRECTION ( 'NONE',  ( -1.000000000000000000, -0.000000000000000000, -0.000000000000000000 ) ) ;
#234 = CC_DESIGN_APPROVAL ( #165, ( #281 ) ) ;
#235 = DIRECTION ( 'NONE',  ( -1.000000000000000000, -0.000000000000000000, -0.000000000000000000 ) ) ;
#236 = PERSON_AND_ORGANIZATION_ROLE ( 'creator' ) ;
#237 = PRODUCT_DEFINITION_SHAPE ( 'NONE', 'NONE',  #7 ) ;
#238 = COORDINATED_UNIVERSAL_TIME_OFFSET ( 8, 0, .AHEAD. ) ;
#239 = VECTOR ( 'NONE', #181, 1000.000000000000000 ) ;
#240 = CALENDAR_DATE ( 2020, 23, 12 ) ;
#241 = ADVANCED_FACE ( 'NONE', ( #123 ), #232, .F. ) ;
#242 = VERTEX_POINT ( 'NONE', #275 ) ;
#243 = APPROVAL_STATUS ( 'not_yet_approved' ) ;
#244 = MANIFOLD_SOLID_BREP ( 'Ðý×', #169 ) ;
#245 = ORIENTED_EDGE ( 'NONE', *, *, #24, .T. ) ;
#246 = EDGE_LOOP ( 'NONE', ( #272, #252, #163, #151 ) ) ;
#247 = FACE_OUTER_BOUND ( 'NONE', #246, .T. ) ;
#248 = DIRECTION ( 'NONE',  ( 0.000000000000000000, 0.000000000000000000, -1.000000000000000000 ) ) ;
#249 = LINE ( 'NONE', #14, #328 ) ;
#250 = AXIS2_PLACEMENT_3D ( 'NONE', #193, #196, #53 ) ;
#251 = LINE ( 'NONE', #119, #239 ) ;
#252 = ORIENTED_EDGE ( 'NONE', *, *, #73, .T. ) ;
#253 = LINE ( 'NONE', #280, #50 ) ;
#254 = VERTEX_POINT ( 'NONE', #147 ) ;
#255 = CARTESIAN_POINT ( 'NONE',  ( -3.000000000000000000, 0.000000000000000000, 0.000000000000000000 ) ) ;
#256 = EDGE_CURVE ( 'NONE', #229, #242, #34, .T. ) ;
#257 = DIRECTION ( 'NONE',  ( 0.000000000000000000, 0.000000000000000000, 1.000000000000000000 ) ) ;
#258 = MECHANICAL_CONTEXT ( 'NONE', #94, 'mechanical' ) ;
#259 = COORDINATED_UNIVERSAL_TIME_OFFSET ( 8, 0, .AHEAD. ) ;
#260 = LOCAL_TIME ( 9, 22, 50.00000000000000000, #238 ) ;
#261 = PERSON_AND_ORGANIZATION ( #102, #141 ) ;
#262 = CARTESIAN_POINT ( 'NONE',  ( -1.614212418857619014, 0.000000000000000000, 0.000000000000000000 ) ) ;
#263 = CARTESIAN_POINT ( 'NONE',  ( -3.000000000000000000, 5.000000000000000000, 0.000000000000000000 ) ) ;
#264 = EDGE_CURVE ( 'NONE', #323, #35, #251, .T. ) ;
#265 = EDGE_LOOP ( 'NONE', ( #198, #319 ) ) ;
#266 = VERTEX_POINT ( 'NONE', #66 ) ;
#267 = CC_DESIGN_PERSON_AND_ORGANIZATION_ASSIGNMENT ( #283, #312, ( #7 ) ) ;
#268 = LOCAL_TIME ( 9, 22, 50.00000000000000000, #156 ) ;
#269 = AXIS2_PLACEMENT_3D ( 'NONE', #124, #46, #130 ) ;
#270 = ORIENTED_EDGE ( 'NONE', *, *, #256, .F. ) ;
#271 = DIRECTION ( 'NONE',  ( -1.000000000000000000, -0.000000000000000000, -0.000000000000000000 ) ) ;
#272 = ORIENTED_EDGE ( 'NONE', *, *, #264, .F. ) ;
#273 = ADVANCED_FACE ( 'NONE', ( #324, #204 ), #279, .F. ) ;
#274 = UNCERTAINTY_MEASURE_WITH_UNIT (LENGTH_MEASURE( 1.000000000000000082E-05 ), #48, 'distance_accuracy_value', 'NONE');
#275 = CARTESIAN_POINT ( 'NONE',  ( -3.000000000000000000, 6.123233995736766282E-16, -5.000000000000000000 ) ) ;
#276 = DIRECTION ( 'NONE',  ( 0.000000000000000000, 0.000000000000000000, 1.000000000000000000 ) ) ;
#277 = AXIS2_PLACEMENT_3D ( 'NONE', #137, #317, #146 ) ;
#278 = ORIENTED_EDGE ( 'NONE', *, *, #223, .T. ) ;
#279 = PLANE ( 'NONE',  #23 ) ;
#280 = CARTESIAN_POINT ( 'NONE',  ( -1.614212418857619014, 0.000000000000000000, 5.000000000000000888 ) ) ;
#281 = PRODUCT_DEFINITION_FORMATION_WITH_SPECIFIED_SOURCE ( 'ANY', '', #72, .NOT_KNOWN. ) ;
#282 = EDGE_CURVE ( 'NONE', #139, #116, #253, .T. ) ;
#283 = PERSON_AND_ORGANIZATION ( #102, #141 ) ;
#284 = COORDINATED_UNIVERSAL_TIME_OFFSET ( 8, 0, .AHEAD. ) ;
#285 = EDGE_CURVE ( 'NONE', #55, #323, #20, .T. ) ;
#286 = APPROVAL_DATE_TIME ( #100, #39 ) ;
#287 = AXIS2_PLACEMENT_3D ( 'NONE', #51, #167, #142 ) ;
#288 = DIRECTION ( 'NONE',  ( 0.000000000000000000, 0.000000000000000000, 1.000000000000000000 ) ) ;
#289 = DIRECTION ( 'NONE',  ( 1.000000000000000000, 0.000000000000000000, 0.000000000000000000 ) ) ;
#290 = ADVANCED_FACE ( 'NONE', ( #325 ), #95, .F. ) ;
#291 = PLANE ( 'NONE',  #86 ) ;
#292 = CALENDAR_DATE ( 2020, 23, 12 ) ;
#293 = CC_DESIGN_DATE_AND_TIME_ASSIGNMENT ( #159, #334, ( #7 ) ) ;
#294 = EDGE_LOOP ( 'NONE', ( #82, #114 ) ) ;
#295 = ORIENTED_EDGE ( 'NONE', *, *, #333, .T. ) ;
#296 = AXIS2_PLACEMENT_3D ( 'NONE', #175, #36, #228 ) ;
#297 = DIRECTION ( 'NONE',  ( -1.000000000000000000, -0.000000000000000000, -0.000000000000000000 ) ) ;
#298 = PLANE ( 'NONE',  #287 ) ;
#299 = ADVANCED_FACE ( 'NONE', ( #65 ), #98, .F. ) ;
#300 = CARTESIAN_POINT ( 'NONE',  ( -3.000000000000000000, 0.000000000000000000, 0.000000000000000000 ) ) ;
#301 = CC_DESIGN_APPROVAL ( #39, ( #155 ) ) ;
#302 = EDGE_LOOP ( 'NONE', ( #176, #122, #222, #110 ) ) ;
#303 = DIRECTION ( 'NONE',  ( 0.000000000000000000, 0.000000000000000000, 1.000000000000000000 ) ) ;
#304 = AXIS2_PLACEMENT_3D ( 'NONE', #255, #60, #329 ) ;
#305 = EDGE_CURVE ( 'NONE', #55, #107, #249, .T. ) ;
#306 = DATE_AND_TIME ( #45, #192 ) ;
#307 = CALENDAR_DATE ( 2020, 23, 12 ) ;
#308 = AXIS2_PLACEMENT_3D ( 'NONE', #166, #56, #115 ) ;
#309 = CARTESIAN_POINT ( 'NONE',  ( 3.000000000000000000, 1.555301434917138433E-15, -12.69999999999999929 ) ) ;
#310 = ADVANCED_BREP_SHAPE_REPRESENTATION ( 'Q-QZWP-R4-10-980-M', ( #244, #335 ), #105 ) ;
#311 = DIRECTION ( 'NONE',  ( 0.000000000000000000, 0.000000000000000000, -1.000000000000000000 ) ) ;
#312 = PERSON_AND_ORGANIZATION_ROLE ( 'creator' ) ;
#313 = CARTESIAN_POINT ( 'NONE',  ( -1.614212418857619014, 0.000000000000000000, 0.000000000000000000 ) ) ;
#314 = ORIENTED_EDGE ( 'NONE', *, *, #131, .T. ) ;
#315 = DATE_AND_TIME ( #292, #207 ) ;
#316 = DIRECTION ( 'NONE',  ( -1.000000000000000000, -0.000000000000000000, -0.000000000000000000 ) ) ;
#317 = DIRECTION ( 'NONE',  ( -1.000000000000000000, -0.000000000000000000, -0.000000000000000000 ) ) ;
#318 = FACE_OUTER_BOUND ( 'NONE', #225, .T. ) ;
#319 = ORIENTED_EDGE ( 'NONE', *, *, #213, .T. ) ;
#320 = ORIENTED_EDGE ( 'NONE', *, *, #136, .F. ) ;
#321 = CIRCLE ( 'NONE', #250, 5.000000000000000000 ) ;
#322 = CARTESIAN_POINT ( 'NONE',  ( 1.250000000000000444, 0.000000000000000000, 0.000000000000000000 ) ) ;
#323 = VERTEX_POINT ( 'NONE', #309 ) ;
#324 = FACE_OUTER_BOUND ( 'NONE', #90, .T. ) ;
#325 = FACE_OUTER_BOUND ( 'NONE', #31, .T. ) ;
#326 = ORIENTED_EDGE ( 'NONE', *, *, #285, .F. ) ;
#327 = CC_DESIGN_PERSON_AND_ORGANIZATION_ASSIGNMENT ( #27, #75, ( #72 ) ) ;
#328 = VECTOR ( 'NONE', #1, 1000.000000000000000 ) ;
#329 = DIRECTION ( 'NONE',  ( 0.000000000000000000, 0.000000000000000000, 1.000000000000000000 ) ) ;
#330 = CIRCLE ( 'NONE', #277, 5.000000000000000000 ) ;
#331 = DIRECTION ( 'NONE',  ( 0.000000000000000000, 0.000000000000000000, 1.000000000000000000 ) ) ;
#332 = DIRECTION ( 'NONE',  ( -1.000000000000000000, -0.000000000000000000, -0.000000000000000000 ) ) ;
#333 = EDGE_CURVE ( 'NONE', #35, #107, #178, .T. ) ;
#334 = DATE_TIME_ROLE ( 'creation_date' ) ;
#335 = AXIS2_PLACEMENT_3D ( 'NONE', #135, #157, #25 ) ;
ENDSEC;
END-ISO-10303-21;
